999
dxflib 2.2.0.0
  0
SECTION
  2
HEADER
  9
$ACADVER
  1
AC1015
  9
$HANDSEED
  5
FFFF
  9
$DIMASZ
 40
2.5
  9
$PLIMMIN
 10
0.0
 20
0.0
  9
$DIMEXE
 40
1.25
  9
$DIMGAP
 40
0.625
  9
$PLIMMAX
 10
210.0
 20
297.0
  9
$INSUNITS
 70
4
  9
$DIMSTYLE
  2
Standard
  9
$MEASUREMENT
 70
1
  9
$DIMEXO
 40
0.625
  9
$DIMTXT
 40
2.5
  0
ENDSEC
  0
SECTION
  2
TABLES
  0
TABLE
  2
VPORT
  5
8
100
AcDbSymbolTable
 70
1
  0
VPORT
  5
30
100
AcDbSymbolTableRecord
100
AcDbViewportTableRecord
  2
*Active
 70
0
 10
0.0
 20
0.0
 11
1.0
 21
1.0
 12
286.3055555555554861
 22
148.5
 13
0.0
 23
0.0
 14
10.0
 24
10.0
 15
10.0
 25
10.0
 16
0.0
 26
0.0
 36
1.0
 17
0.0
 27
0.0
 37
0.0
 40
297.0
 41
1.92798353909465
 42
50.0
 43
0.0
 44
0.0
 50
0.0
 51
0.0
 71
0
 72
100
 73
1
 74
3
 75
1
 76
1
 77
0
 78
0
281
0
 65
1
110
0.0
120
0.0
130
0.0
111
1.0
121
0.0
131
0.0
112
0.0
122
1.0
132
0.0
 79
0
146
0.0
  0
ENDTAB
  0
TABLE
  2
LTYPE
  5
5
100
AcDbSymbolTable
 70
21
  0
LTYPE
  5
14
100
AcDbSymbolTableRecord
100
AcDbLinetypeTableRecord
  2
ByBlock
 70
0
  3

 72
65
 73
0
 40
0.0
  0
LTYPE
  5
15
100
AcDbSymbolTableRecord
100
AcDbLinetypeTableRecord
  2
ByLayer
 70
0
  3

 72
65
 73
0
 40
0.0
  0
LTYPE
  5
16
100
AcDbSymbolTableRecord
100
AcDbLinetypeTableRecord
  2
CONTINUOUS
 70
0
  3
Solid line
 72
65
 73
0
 40
0.0
  0
LTYPE
  5
31
100
AcDbSymbolTableRecord
100
AcDbLinetypeTableRecord
  2
DOT
 70
0
  3
Dot . . . . . . . . . . . . . . . . . . . . . .
 72
65
 73
2
 40
6.3499999999999996
 49
0.0
 74
0
 49
-6.3499999999999996
 74
0
  0
LTYPE
  5
32
100
AcDbSymbolTableRecord
100
AcDbLinetypeTableRecord
  2
DOT2
 70
0
  3
Dot (.5x) .....................................
 72
65
 73
2
 40
3.1749999999999998
 49
0.0
 74
0
 49
-3.1749999999999998
 74
0
  0
LTYPE
  5
33
100
AcDbSymbolTableRecord
100
AcDbLinetypeTableRecord
  2
DOTX2
 70
0
  3
Dot (2x) .  .  .  .  .  .  .  .  .  .  .  .  .
 72
65
 73
2
 40
12.6999999999999993
 49
0.0
 74
0
 49
-12.6999999999999993
 74
0
  0
LTYPE
  5
34
100
AcDbSymbolTableRecord
100
AcDbLinetypeTableRecord
  2
DASHED
 70
0
  3
Dashed __ __ __ __ __ __ __ __ __ __ __ __ __ _
 72
65
 73
2
 40
19.0500000000000007
 49
12.6999999999999993
 74
0
 49
-6.3499999999999996
 74
0
  0
LTYPE
  5
35
100
AcDbSymbolTableRecord
100
AcDbLinetypeTableRecord
  2
DASHED2
 70
0
  3
Dashed (.5x) _ _ _ _ _ _ _ _ _ _ _ _ _ _ _ _ _
 72
65
 73
2
 40
9.5250000000000004
 49
6.3499999999999996
 74
0
 49
-3.1749999999999998
 74
0
  0
LTYPE
  5
36
100
AcDbSymbolTableRecord
100
AcDbLinetypeTableRecord
  2
DASHEDX2
 70
0
  3
Dashed (2x) ____  ____  ____  ____  ____  ___
 72
65
 73
2
 40
38.1000000000000014
 49
25.3999999999999986
 74
0
 49
-12.6999999999999993
 74
0
  0
LTYPE
  5
37
100
AcDbSymbolTableRecord
100
AcDbLinetypeTableRecord
  2
DASHDOT
 70
0
  3
Dash dot __ . __ . __ . __ . __ . __ . __ . __
 72
65
 73
4
 40
25.3999999999999986
 49
12.6999999999999993
 74
0
 49
-6.3499999999999996
 74
0
 49
0.0
 74
0
 49
-6.3499999999999996
 74
0
  0
LTYPE
  5
38
100
AcDbSymbolTableRecord
100
AcDbLinetypeTableRecord
  2
DASHDOT2
 70
0
  3
Dash dot (.5x) _._._._._._._._._._._._._._._.
 72
65
 73
4
 40
12.6999999999999993
 49
6.3499999999999996
 74
0
 49
-3.1749999999999998
 74
0
 49
0.0
 74
0
 49
-3.1749999999999998
 74
0
  0
LTYPE
  5
39
100
AcDbSymbolTableRecord
100
AcDbLinetypeTableRecord
  2
DASHDOTX2
 70
0
  3
Dash dot (2x) ____  .  ____  .  ____  .  ___
 72
65
 73
4
 40
50.7999999999999972
 49
25.3999999999999986
 74
0
 49
-12.6999999999999993
 74
0
 49
0.0
 74
0
 49
-12.6999999999999993
 74
0
  0
LTYPE
  5
3A
100
AcDbSymbolTableRecord
100
AcDbLinetypeTableRecord
  2
DIVIDE
 70
0
  3
Divide ____ . . ____ . . ____ . . ____ . . ____
 72
65
 73
6
 40
31.75
 49
12.6999999999999993
 74
0
 49
-6.3499999999999996
 74
0
 49
0.0
 74
0
 49
-6.3499999999999996
 74
0
 49
0.0
 74
0
 49
-6.3499999999999996
 74
0
  0
LTYPE
  5
3B
100
AcDbSymbolTableRecord
100
AcDbLinetypeTableRecord
  2
DIVIDE2
 70
0
  3
Divide (.5x) __..__..__..__..__..__..__..__.._
 72
65
 73
6
 40
15.875
 49
6.3499999999999996
 74
0
 49
-3.1749999999999998
 74
0
 49
0.0
 74
0
 49
-3.1749999999999998
 74
0
 49
0.0
 74
0
 49
-3.1749999999999998
 74
0
  0
LTYPE
  5
3C
100
AcDbSymbolTableRecord
100
AcDbLinetypeTableRecord
  2
DIVIDEX2
 70
0
  3
Divide (2x) ________  .  .  ________  .  .  _
 72
65
 73
6
 40
63.5
 49
25.3999999999999986
 74
0
 49
-12.6999999999999993
 74
0
 49
0.0
 74
0
 49
-12.6999999999999993
 74
0
 49
0.0
 74
0
 49
-12.6999999999999993
 74
0
  0
LTYPE
  5
3D
100
AcDbSymbolTableRecord
100
AcDbLinetypeTableRecord
  2
CENTER
 70
0
  3
Center ____ _ ____ _ ____ _ ____ _ ____ _ ____
 72
65
 73
4
 40
50.7999999999999972
 49
31.75
 74
0
 49
-6.3499999999999996
 74
0
 49
6.3499999999999996
 74
0
 49
-6.3499999999999996
 74
0
  0
LTYPE
  5
3E
100
AcDbSymbolTableRecord
100
AcDbLinetypeTableRecord
  2
CENTER2
 70
0
  3
Center (.5x) ___ _ ___ _ ___ _ ___ _ ___ _ ___
 72
65
 73
4
 40
28.5749999999999993
 49
19.0500000000000007
 74
0
 49
-3.1749999999999998
 74
0
 49
3.1749999999999998
 74
0
 49
-3.1749999999999998
 74
0
  0
LTYPE
  5
3F
100
AcDbSymbolTableRecord
100
AcDbLinetypeTableRecord
  2
CENTERX2
 70
0
  3
Center (2x) ________  __  ________  __  _____
 72
65
 73
4
 40
101.5999999999999943
 49
63.5
 74
0
 49
-12.6999999999999993
 74
0
 49
12.6999999999999993
 74
0
 49
-12.6999999999999993
 74
0
  0
LTYPE
  5
40
100
AcDbSymbolTableRecord
100
AcDbLinetypeTableRecord
  2
BORDER
 70
0
  3
Border __ __ . __ __ . __ __ . __ __ . __ __ .
 72
65
 73
6
 40
44.4500000000000028
 49
12.6999999999999993
 74
0
 49
-6.3499999999999996
 74
0
 49
12.6999999999999993
 74
0
 49
-6.3499999999999996
 74
0
 49
0.0
 74
0
 49
-6.3499999999999996
 74
0
  0
LTYPE
  5
41
100
AcDbSymbolTableRecord
100
AcDbLinetypeTableRecord
  2
BORDER2
 70
0
  3
Border (.5x) __.__.__.__.__.__.__.__.__.__.__.
 72
65
 73
6
 40
22.2250000000000014
 49
6.3499999999999996
 74
0
 49
-3.1749999999999998
 74
0
 49
6.3499999999999996
 74
0
 49
-3.1749999999999998
 74
0
 49
0.0
 74
0
 49
-3.1749999999999998
 74
0
  0
LTYPE
  5
42
100
AcDbSymbolTableRecord
100
AcDbLinetypeTableRecord
  2
BORDERX2
 70
0
  3
Border (2x) ____  ____  .  ____  ____  .  ___
 72
65
 73
6
 40
88.9000000000000057
 49
25.3999999999999986
 74
0
 49
-12.6999999999999993
 74
0
 49
25.3999999999999986
 74
0
 49
-12.6999999999999993
 74
0
 49
0.0
 74
0
 49
-12.6999999999999993
 74
0
  0
ENDTAB
  0
TABLE
  2
LAYER
  5
2
100
AcDbSymbolTable
 70
4
  0
LAYER
  5
10
100
AcDbSymbolTableRecord
100
AcDbLayerTableRecord
  2
0
 70
0
 62
7
  6
CONTINUOUS
290
1
390
F
  0
LAYER
  5
43
100
AcDbSymbolTableRecord
100
AcDbLayerTableRecord
  2
outline
 70
0
 62
7
  6
CONTINUOUS
290
1
390
F
  0
LAYER
  5
44
100
AcDbSymbolTableRecord
100
AcDbLayerTableRecord
  2
details_top
 70
0
 62
7
  6
CONTINUOUS
290
1
390
F
  0
LAYER
  5
45
100
AcDbSymbolTableRecord
100
AcDbLayerTableRecord
  2
ridge
 70
0
 62
7
  6
CONTINUOUS
290
1
390
F
  0
ENDTAB
  0
TABLE
  2
STYLE
  5
3
100
AcDbSymbolTable
 70
1
  0
STYLE
  5
11
100
AcDbSymbolTableRecord
100
AcDbTextStyleTableRecord
  2
Standard
 70
0
 40
0.0
 41
0.75
 50
0.0
 71
0
 42
2.5
  3
txt
  4

  0
ENDTAB
  0
TABLE
  2
VIEW
  5
6
100
AcDbSymbolTable
 70
0
  0
ENDTAB
  0
TABLE
  2
UCS
  5
7
100
AcDbSymbolTable
 70
0
  0
ENDTAB
  0
TABLE
  2
APPID
  5
9
100
AcDbSymbolTable
 70
1
  0
APPID
  5
12
100
AcDbSymbolTableRecord
100
AcDbRegAppTableRecord
  2
ACAD
 70
0
  0
ENDTAB
  0
TABLE
  2
DIMSTYLE
  5
A
100
AcDbSymbolTable
 70
1
100
AcDbDimStyleTable
 71
0
  0
DIMSTYLE
105
27
100
AcDbSymbolTableRecord
100
AcDbDimStyleTableRecord
  2
Standard
 41
2.5
 42
0.625
 43
3.75
 44
1.25
 70
0
 73
0
 74
0
 77
1
 78
8
140
2.5
141
2.5
143
0.03937007874016
147
0.625
171
3
172
1
271
2
272
2
274
3
278
44
283
0
284
8
340
11
  0
ENDTAB
  0
TABLE
  2
BLOCK_RECORD
  5
1
100
AcDbSymbolTable
 70
1
  0
BLOCK_RECORD
  5
1F
100
AcDbSymbolTableRecord
100
AcDbBlockTableRecord
  2
*Model_Space
340
22
  0
BLOCK_RECORD
  5
1B
100
AcDbSymbolTableRecord
100
AcDbBlockTableRecord
  2
*Paper_Space
340
1E
  0
BLOCK_RECORD
  5
23
100
AcDbSymbolTableRecord
100
AcDbBlockTableRecord
  2
*Paper_Space0
340
26
  0
ENDTAB
  0
ENDSEC
  0
SECTION
  2
BLOCKS
  0
BLOCK
  5
20
100
AcDbEntity
  8
0
100
AcDbBlockBegin
  2
*Model_Space
 70
0
 10
0.0
 20
0.0
 30
0.0
  3
*Model_Space
  1

  0
ENDBLK
  5
21
100
AcDbEntity
  8
0
100
AcDbBlockEnd
  0
BLOCK
  5
1C
100
AcDbEntity
 67
1
  8
0
100
AcDbBlockBegin
  2
*Paper_Space
 70
0
 10
0.0
 20
0.0
 30
0.0
  3
*Paper_Space
  1

  0
ENDBLK
  5
1D
100
AcDbEntity
 67
1
  8
0
100
AcDbBlockEnd
  0
BLOCK
  5
24
100
AcDbEntity
  8
0
100
AcDbBlockBegin
  2
*Paper_Space0
 70
0
 10
0.0
 20
0.0
 30
0.0
  3
*Paper_Space0
  1

  0
ENDBLK
  5
25
100
AcDbEntity
  8
0
100
AcDbBlockEnd
  0
ENDSEC
  0
SECTION
  2
ENTITIES
  0
LINE
  5
46
100
AcDbEntity
100
AcDbLine
  8
outline
 62
7
370
-1
  6
ByLayer
 10
111.2905279999999948
 20
143.0755870000000129
 30
0.0
 11
101.4636780000000016
 21
141.0333870000000047
 31
0.0
  0
LINE
  5
47
100
AcDbEntity
100
AcDbLine
  8
outline
 62
7
370
-1
  6
ByLayer
 10
101.4636780000000016
 20
141.0333870000000047
 30
0.0
 11
93.4378389999999968
 21
135.465974999999986
 31
0.0
  0
LINE
  5
48
100
AcDbEntity
100
AcDbLine
  8
outline
 62
7
370
-1
  6
ByLayer
 10
93.4378389999999968
 20
135.465974999999986
 30
0.0
 11
88.0260839999999973
 21
127.2121350000000035
 31
0.0
  0
LINE
  5
49
100
AcDbEntity
100
AcDbLine
  8
outline
 62
7
370
-1
  6
ByLayer
 10
88.0260839999999973
 20
127.2121350000000035
 30
0.0
 11
86.0414829999999995
 21
117.1106539999999967
 31
0.0
  0
LINE
  5
4A
100
AcDbEntity
100
AcDbLine
  8
outline
 62
7
370
-1
  6
ByLayer
 10
86.0414829999999995
 20
117.1106539999999967
 30
0.0
 11
84.4878590000000003
 21
111.5423949999999991
 31
0.0
  0
LINE
  5
4B
100
AcDbEntity
100
AcDbLine
  8
outline
 62
7
370
-1
  6
ByLayer
 10
84.4878590000000003
 20
111.5423949999999991
 30
0.0
 11
82.1195000000000022
 21
107.4265400000000028
 31
0.0
  0
LINE
  5
4C
100
AcDbEntity
100
AcDbLine
  8
outline
 62
7
370
-1
  6
ByLayer
 10
82.1195000000000022
 20
107.4265400000000028
 30
0.0
 11
79.1115790000000061
 21
104.6633250000000004
 31
0.0
  0
LINE
  5
4D
100
AcDbEntity
100
AcDbLine
  8
outline
 62
7
370
-1
  6
ByLayer
 10
79.1115790000000061
 20
104.6633250000000004
 30
0.0
 11
75.6392579999999981
 21
103.1529840000000036
 31
0.0
  0
LINE
  5
4E
100
AcDbEntity
100
AcDbLine
  8
outline
 62
7
370
-1
  6
ByLayer
 10
75.6392579999999981
 20
103.1529840000000036
 30
0.0
 11
71.8777039999999943
 21
102.7957590000000039
 31
0.0
  0
LINE
  5
4F
100
AcDbEntity
100
AcDbLine
  8
outline
 62
7
370
-1
  6
ByLayer
 10
71.8777039999999943
 20
102.7957590000000039
 30
0.0
 11
68.0020820000000015
 21
103.491888000000003
 31
0.0
  0
LINE
  5
50
100
AcDbEntity
100
AcDbLine
  8
outline
 62
7
370
-1
  6
ByLayer
 10
68.0020820000000015
 20
103.491888000000003
 30
0.0
 11
64.1875610000000023
 21
105.141604000000001
 31
0.0
  0
LINE
  5
51
100
AcDbEntity
100
AcDbLine
  8
outline
 62
7
370
-1
  6
ByLayer
 10
64.1875610000000023
 20
105.141604000000001
 30
0.0
 11
60.6093019999999996
 21
107.6451490000000035
 31
0.0
  0
LINE
  5
52
100
AcDbEntity
100
AcDbLine
  8
outline
 62
7
370
-1
  6
ByLayer
 10
60.6093019999999996
 20
107.6451490000000035
 30
0.0
 11
54.8627919999999989
 21
111.7631240000000048
 31
0.0
  0
LINE
  5
53
100
AcDbEntity
100
AcDbLine
  8
outline
 62
7
370
-1
  6
ByLayer
 10
54.8627919999999989
 20
111.7631240000000048
 30
0.0
 11
49.0150399999999991
 21
114.4822369999999978
 31
0.0
  0
LINE
  5
54
100
AcDbEntity
100
AcDbLine
  8
outline
 62
7
370
-1
  6
ByLayer
 10
49.0150399999999991
 20
114.4822369999999978
 30
0.0
 11
48.5723490000000027
 21
114.5438510000000036
 31
0.0
  0
LINE
  5
55
100
AcDbEntity
100
AcDbLine
  8
outline
 62
7
370
-1
  6
ByLayer
 10
48.5723490000000027
 20
114.5438510000000036
 30
0.0
 11
48.1628729999999976
 21
114.4428779999999932
 31
0.0
  0
LINE
  5
56
100
AcDbEntity
100
AcDbLine
  8
outline
 62
7
370
-1
  6
ByLayer
 10
48.1628729999999976
 20
114.4428779999999932
 30
0.0
 11
47.8061719999999966
 21
114.2344310000000007
 31
0.0
  0
LINE
  5
57
100
AcDbEntity
100
AcDbLine
  8
outline
 62
7
370
-1
  6
ByLayer
 10
47.8061719999999966
 20
114.2344310000000007
 30
0.0
 11
47.5218130000000016
 21
113.9736410000000006
 31
0.0
  0
LINE
  5
58
100
AcDbEntity
100
AcDbLine
  8
outline
 62
7
370
-1
  6
ByLayer
 10
47.5218130000000016
 20
113.9736410000000006
 30
0.0
 11
41.1970609999999979
 21
105.0822359999999946
 31
0.0
  0
LINE
  5
59
100
AcDbEntity
100
AcDbLine
  8
outline
 62
7
370
-1
  6
ByLayer
 10
41.1970609999999979
 20
105.0822359999999946
 30
0.0
 11
37.4182940000000031
 21
96.1667419999999993
 31
0.0
  0
LINE
  5
5A
100
AcDbEntity
100
AcDbLine
  8
outline
 62
7
370
-1
  6
ByLayer
 10
37.4182940000000031
 20
96.1667419999999993
 30
0.0
 11
35.6061460000000025
 21
87.3994270000000029
 31
0.0
  0
LINE
  5
5B
100
AcDbEntity
100
AcDbLine
  8
outline
 62
7
370
-1
  6
ByLayer
 10
35.6061460000000025
 20
87.3994270000000029
 30
0.0
 11
35.181237000000003
 21
78.9525560000000013
 31
0.0
  0
LINE
  5
5C
100
AcDbEntity
100
AcDbLine
  8
outline
 62
7
370
-1
  6
ByLayer
 10
35.181237000000003
 20
78.9525560000000013
 30
0.0
 11
35.8909280000000024
 21
69.9469320000000039
 31
0.0
  0
LINE
  5
5D
100
AcDbEntity
100
AcDbLine
  8
outline
 62
7
370
-1
  6
ByLayer
 10
35.8909280000000024
 20
69.9469320000000039
 30
0.0
 11
37.7237799999999979
 21
61.9207409999999996
 31
0.0
  0
LINE
  5
5E
100
AcDbEntity
100
AcDbLine
  8
outline
 62
7
370
-1
  6
ByLayer
 10
37.7237799999999979
 20
61.9207409999999996
 30
0.0
 11
40.4975790000000018
 21
54.8243650000000002
 31
0.0
  0
LINE
  5
5F
100
AcDbEntity
100
AcDbLine
  8
outline
 62
7
370
-1
  6
ByLayer
 10
40.4975790000000018
 20
54.8243650000000002
 30
0.0
 11
44.0301120000000026
 21
48.6081780000000023
 31
0.0
  0
LINE
  5
60
100
AcDbEntity
100
AcDbLine
  8
outline
 62
7
370
-1
  6
ByLayer
 10
44.0301120000000026
 20
48.6081780000000023
 30
0.0
 11
44.2044659999999965
 21
48.3805539999999965
 31
0.0
  0
LINE
  5
61
100
AcDbEntity
100
AcDbLine
  8
outline
 62
7
370
-1
  6
ByLayer
 10
44.2044659999999965
 20
48.3805539999999965
 30
0.0
 11
44.4032100000000014
 21
48.1715710000000001
 31
0.0
  0
LINE
  5
62
100
AcDbEntity
100
AcDbLine
  8
outline
 62
7
370
-1
  6
ByLayer
 10
44.4032100000000014
 20
48.1715710000000001
 30
0.0
 11
44.6269869999999997
 21
47.9852169999999987
 31
0.0
  0
LINE
  5
63
100
AcDbEntity
100
AcDbLine
  8
outline
 62
7
370
-1
  6
ByLayer
 10
44.6269869999999997
 20
47.9852169999999987
 30
0.0
 11
44.8764460000000014
 21
47.8254769999999994
 31
0.0
  0
LINE
  5
64
100
AcDbEntity
100
AcDbLine
  8
outline
 62
7
370
-1
  6
ByLayer
 10
44.8764460000000014
 20
47.8254769999999994
 30
0.0
 11
54.4592250000000035
 21
43.3101100000000017
 31
0.0
  0
LINE
  5
65
100
AcDbEntity
100
AcDbLine
  8
outline
 62
7
370
-1
  6
ByLayer
 10
54.4592250000000035
 20
43.3101100000000017
 30
0.0
 11
64.8132439999999974
 21
39.9529330000000016
 31
0.0
  0
LINE
  5
66
100
AcDbEntity
100
AcDbLine
  8
outline
 62
7
370
-1
  6
ByLayer
 10
64.8132439999999974
 20
39.9529330000000016
 30
0.0
 11
75.8126689999999996
 21
37.8604950000000002
 31
0.0
  0
LINE
  5
67
100
AcDbEntity
100
AcDbLine
  8
outline
 62
7
370
-1
  6
ByLayer
 10
75.8126689999999996
 20
37.8604950000000002
 30
0.0
 11
87.3316619999999944
 21
37.1393380000000022
 31
0.0
  0
LINE
  5
68
100
AcDbEntity
100
AcDbLine
  8
outline
 62
7
370
-1
  6
ByLayer
 10
87.3316619999999944
 20
37.1393380000000022
 30
0.0
 11
97.0032740000000047
 21
37.6473069999999979
 31
0.0
  0
LINE
  5
69
100
AcDbEntity
100
AcDbLine
  8
outline
 62
7
370
-1
  6
ByLayer
 10
97.0032740000000047
 20
37.6473069999999979
 30
0.0
 11
106.3201439999999991
 21
39.1288040000000024
 31
0.0
  0
LINE
  5
6A
100
AcDbEntity
100
AcDbLine
  8
outline
 62
7
370
-1
  6
ByLayer
 10
106.3201439999999991
 20
39.1288040000000024
 30
0.0
 11
115.212254999999999
 21
41.5202030000000022
 31
0.0
  0
LINE
  5
6B
100
AcDbEntity
100
AcDbLine
  8
outline
 62
7
370
-1
  6
ByLayer
 10
115.212254999999999
 20
41.5202030000000022
 30
0.0
 11
123.6095930000000038
 21
44.7578710000000015
 31
0.0
  0
LINE
  5
6C
100
AcDbEntity
100
AcDbLine
  8
outline
 62
7
370
-1
  6
ByLayer
 10
123.6095930000000038
 20
44.7578710000000015
 30
0.0
 11
123.9135780000000011
 21
44.9222279999999969
 31
0.0
  0
LINE
  5
6D
100
AcDbEntity
100
AcDbLine
  8
outline
 62
7
370
-1
  6
ByLayer
 10
123.9135780000000011
 20
44.9222279999999969
 30
0.0
 11
124.2441390000000041
 21
45.1763979999999989
 31
0.0
  0
LINE
  5
6E
100
AcDbEntity
100
AcDbLine
  8
outline
 62
7
370
-1
  6
ByLayer
 10
124.2441390000000041
 20
45.1763979999999989
 30
0.0
 11
124.5444690000000065
 21
45.4579280000000026
 31
0.0
  0
LINE
  5
6F
100
AcDbEntity
100
AcDbLine
  8
outline
 62
7
370
-1
  6
ByLayer
 10
124.5444690000000065
 20
45.4579280000000026
 30
0.0
 11
124.7577500000000015
 21
45.7043680000000023
 31
0.0
  0
LINE
  5
70
100
AcDbEntity
100
AcDbLine
  8
outline
 62
7
370
-1
  6
ByLayer
 10
124.7577500000000015
 20
45.7043680000000023
 30
0.0
 11
129.2522289999999998
 21
52.3436990000000009
 31
0.0
  0
LINE
  5
71
100
AcDbEntity
100
AcDbLine
  8
outline
 62
7
370
-1
  6
ByLayer
 10
129.2522289999999998
 20
52.3436990000000009
 30
0.0
 11
132.6191399999999874
 21
59.6886679999999998
 31
0.0
  0
LINE
  5
72
100
AcDbEntity
100
AcDbLine
  8
outline
 62
7
370
-1
  6
ByLayer
 10
132.6191399999999874
 20
59.6886679999999998
 30
0.0
 11
134.732024999999993
 21
67.6193970000000064
 31
0.0
  0
LINE
  5
73
100
AcDbEntity
100
AcDbLine
  8
outline
 62
7
370
-1
  6
ByLayer
 10
134.732024999999993
 20
67.6193970000000064
 30
0.0
 11
135.4644220000000132
 21
76.016011000000006
 31
0.0
  0
LINE
  5
74
100
AcDbEntity
100
AcDbLine
  8
outline
 62
7
370
-1
  6
ByLayer
 10
135.4644220000000132
 20
76.016011000000006
 30
0.0
 11
135.0889599999999859
 21
82.0457449999999966
 31
0.0
  0
LINE
  5
75
100
AcDbEntity
100
AcDbLine
  8
outline
 62
7
370
-1
  6
ByLayer
 10
135.0889599999999859
 20
82.0457449999999966
 30
0.0
 11
133.9923939999999902
 21
87.8499609999999933
 31
0.0
  0
LINE
  5
76
100
AcDbEntity
100
AcDbLine
  8
outline
 62
7
370
-1
  6
ByLayer
 10
133.9923939999999902
 20
87.8499609999999933
 30
0.0
 11
134.0448930000000018
 21
92.1294209999999936
 31
0.0
  0
LINE
  5
77
100
AcDbEntity
100
AcDbLine
  8
outline
 62
7
370
-1
  6
ByLayer
 10
134.0448930000000018
 20
92.1294209999999936
 30
0.0
 11
135.7662109999999984
 21
97.0008140000000054
 31
0.0
  0
LINE
  5
78
100
AcDbEntity
100
AcDbLine
  8
outline
 62
7
370
-1
  6
ByLayer
 10
135.7662109999999984
 20
97.0008140000000054
 30
0.0
 11
139.2121530000000007
 21
101.3995709999999946
 31
0.0
  0
LINE
  5
79
100
AcDbEntity
100
AcDbLine
  8
outline
 62
7
370
-1
  6
ByLayer
 10
139.2121530000000007
 20
101.3995709999999946
 30
0.0
 11
144.4385220000000061
 21
104.2611210000000028
 31
0.0
  0
LINE
  5
7A
100
AcDbEntity
100
AcDbLine
  8
outline
 62
7
370
-1
  6
ByLayer
 10
144.4385220000000061
 20
104.2611210000000028
 30
0.0
 11
149.8861670000000004
 21
108.1340229999999991
 31
0.0
  0
LINE
  5
7B
100
AcDbEntity
100
AcDbLine
  8
outline
 62
7
370
-1
  6
ByLayer
 10
149.8861670000000004
 20
108.1340229999999991
 30
0.0
 11
153.5566900000000032
 21
113.8783829999999995
 31
0.0
  0
LINE
  5
7C
100
AcDbEntity
100
AcDbLine
  8
outline
 62
7
370
-1
  6
ByLayer
 10
153.5566900000000032
 20
113.8783829999999995
 30
0.0
 11
154.9019949999999994
 21
120.9128840000000054
 31
0.0
  0
LINE
  5
7D
100
AcDbEntity
100
AcDbLine
  8
outline
 62
7
370
-1
  6
ByLayer
 10
154.9019949999999994
 20
120.9128840000000054
 30
0.0
 11
154.8651120000000105
 21
122.083627000000007
 31
0.0
  0
LINE
  5
7E
100
AcDbEntity
100
AcDbLine
  8
outline
 62
7
370
-1
  6
ByLayer
 10
154.8651120000000105
 20
122.083627000000007
 30
0.0
 11
154.7621430000000089
 21
123.2958699999999936
 31
0.0
  0
LINE
  5
7F
100
AcDbEntity
100
AcDbLine
  8
outline
 62
7
370
-1
  6
ByLayer
 10
154.7621430000000089
 20
123.2958699999999936
 30
0.0
 11
154.5773269999999968
 21
124.4444239999999979
 31
0.0
  0
LINE
  5
80
100
AcDbEntity
100
AcDbLine
  8
outline
 62
7
370
-1
  6
ByLayer
 10
154.5773269999999968
 20
124.4444239999999979
 30
0.0
 11
154.4040310000000034
 21
125.1451279999999997
 31
0.0
  0
LINE
  5
81
100
AcDbEntity
100
AcDbLine
  8
outline
 62
7
370
-1
  6
ByLayer
 10
154.4040310000000034
 20
125.1451279999999997
 30
0.0
 11
154.2763710000000117
 21
125.3936869999999999
 31
0.0
  0
LINE
  5
82
100
AcDbEntity
100
AcDbLine
  8
outline
 62
7
370
-1
  6
ByLayer
 10
154.2763710000000117
 20
125.3936869999999999
 30
0.0
 11
154.0487469999999917
 21
125.6592129999999941
 31
0.0
  0
LINE
  5
83
100
AcDbEntity
100
AcDbLine
  8
outline
 62
7
370
-1
  6
ByLayer
 10
154.0487469999999917
 20
125.6592129999999941
 30
0.0
 11
153.7495889999999861
 21
125.7445629999999994
 31
0.0
  0
LINE
  5
84
100
AcDbEntity
100
AcDbLine
  8
outline
 62
7
370
-1
  6
ByLayer
 10
153.7495889999999861
 20
125.7445629999999994
 30
0.0
 11
153.3527479999999912
 21
125.5920839999999998
 31
0.0
  0
LINE
  5
85
100
AcDbEntity
100
AcDbLine
  8
outline
 62
7
370
-1
  6
ByLayer
 10
153.3527479999999912
 20
125.5920839999999998
 30
0.0
 11
147.7859139999999911
 21
124.0541529999999995
 31
0.0
  0
LINE
  5
86
100
AcDbEntity
100
AcDbLine
  8
outline
 62
7
370
-1
  6
ByLayer
 10
147.7859139999999911
 20
124.0541529999999995
 30
0.0
 11
143.1250400000000127
 21
123.9539160000000066
 31
0.0
  0
LINE
  5
87
100
AcDbEntity
100
AcDbLine
  8
outline
 62
7
370
-1
  6
ByLayer
 10
143.1250400000000127
 20
123.9539160000000066
 30
0.0
 11
139.2359329999999886
 21
125.0084789999999941
 31
0.0
  0
LINE
  5
88
100
AcDbEntity
100
AcDbLine
  8
outline
 62
7
370
-1
  6
ByLayer
 10
139.2359329999999886
 20
125.0084789999999941
 30
0.0
 11
135.9843999999999937
 21
126.9349509999999981
 31
0.0
  0
LINE
  5
89
100
AcDbEntity
100
AcDbLine
  8
outline
 62
7
370
-1
  6
ByLayer
 10
135.9843999999999937
 20
126.9349509999999981
 30
0.0
 11
133.2362500000000125
 21
129.4504310000000089
 31
0.0
  0
LINE
  5
8A
100
AcDbEntity
100
AcDbLine
  8
outline
 62
7
370
-1
  6
ByLayer
 10
133.2362500000000125
 20
129.4504310000000089
 30
0.0
 11
130.8572910000000036
 21
132.2720270000000085
 31
0.0
  0
LINE
  5
8B
100
AcDbEntity
100
AcDbLine
  8
outline
 62
7
370
-1
  6
ByLayer
 10
130.8572910000000036
 20
132.2720270000000085
 30
0.0
 11
128.7133310000000108
 21
135.1168439999999862
 31
0.0
  0
LINE
  5
8C
100
AcDbEntity
100
AcDbLine
  8
outline
 62
7
370
-1
  6
ByLayer
 10
128.7133310000000108
 20
135.1168439999999862
 30
0.0
 11
126.6701750000000004
 21
137.7019880000000001
 31
0.0
  0
LINE
  5
8D
100
AcDbEntity
100
AcDbLine
  8
outline
 62
7
370
-1
  6
ByLayer
 10
126.6701750000000004
 20
137.7019880000000001
 30
0.0
 11
119.5530669999999986
 21
141.6522889999999961
 31
0.0
  0
LINE
  5
8E
100
AcDbEntity
100
AcDbLine
  8
outline
 62
7
370
-1
  6
ByLayer
 10
119.5530669999999986
 20
141.6522889999999961
 30
0.0
 11
111.2905279999999948
 21
143.0755870000000129
 31
0.0
  0
LINE
  5
8F
100
AcDbEntity
100
AcDbLine
  8
ridge
 62
1
370
-1
  6
ByLayer
 10
111.2452580000000069
 20
136.9988089999999943
 30
0.0
 11
103.6370550000000037
 21
135.2564680000000124
 31
0.0
  0
LINE
  5
90
100
AcDbEntity
100
AcDbLine
  8
ridge
 62
1
370
-1
  6
ByLayer
 10
103.6370550000000037
 20
135.2564680000000124
 30
0.0
 11
97.3486979999999988
 21
130.6175330000000088
 31
0.0
  0
LINE
  5
91
100
AcDbEntity
100
AcDbLine
  8
ridge
 62
1
370
-1
  6
ByLayer
 10
97.3486979999999988
 20
130.6175330000000088
 30
0.0
 11
93.1959130000000044
 21
123.9864309999999961
 31
0.0
  0
LINE
  5
92
100
AcDbEntity
100
AcDbLine
  8
ridge
 62
1
370
-1
  6
ByLayer
 10
93.1959130000000044
 20
123.9864309999999961
 30
0.0
 11
91.9944169999999986
 21
116.2676000000000016
 31
0.0
  0
LINE
  5
93
100
AcDbEntity
100
AcDbLine
  8
ridge
 62
1
370
-1
  6
ByLayer
 10
91.9944169999999986
 20
116.2676000000000016
 30
0.0
 11
92.5695659999999947
 21
112.0136980000000051
 31
0.0
  0
LINE
  5
94
100
AcDbEntity
100
AcDbLine
  8
ridge
 62
1
370
-1
  6
ByLayer
 10
92.5695659999999947
 20
112.0136980000000051
 30
0.0
 11
94.0347260000000063
 21
107.9965839999999986
 31
0.0
  0
LINE
  5
95
100
AcDbEntity
100
AcDbLine
  8
ridge
 62
1
370
-1
  6
ByLayer
 10
94.0347260000000063
 20
107.9965839999999986
 30
0.0
 11
96.2197749999999985
 21
104.2971859999999964
 31
0.0
  0
LINE
  5
96
100
AcDbEntity
100
AcDbLine
  8
ridge
 62
1
370
-1
  6
ByLayer
 10
96.2197749999999985
 20
104.2971859999999964
 30
0.0
 11
98.9545980000000043
 21
100.9964400000000069
 31
0.0
  0
LINE
  5
97
100
AcDbEntity
100
AcDbLine
  8
ridge
 62
1
370
-1
  6
ByLayer
 10
98.9545980000000043
 20
100.9964400000000069
 30
0.0
 11
99.8146480000000054
 21
98.297742999999997
 31
0.0
  0
LINE
  5
98
100
AcDbEntity
100
AcDbLine
  8
ridge
 62
1
370
-1
  6
ByLayer
 10
99.8146480000000054
 20
98.297742999999997
 30
0.0
 11
99.4481289999999944
 21
95.4668759999999992
 31
0.0
  0
LINE
  5
99
100
AcDbEntity
100
AcDbLine
  8
ridge
 62
1
370
-1
  6
ByLayer
 10
99.4481289999999944
 20
95.4668759999999992
 30
0.0
 11
97.9803840000000008
 21
93.0569270000000017
 31
0.0
  0
LINE
  5
9A
100
AcDbEntity
100
AcDbLine
  8
ridge
 62
1
370
-1
  6
ByLayer
 10
97.9803840000000008
 20
93.0569270000000017
 30
0.0
 11
95.5367549999999994
 21
91.6209999999999951
 31
0.0
  0
LINE
  5
9B
100
AcDbEntity
100
AcDbLine
  8
ridge
 62
1
370
-1
  6
ByLayer
 10
95.5367549999999994
 20
91.6209999999999951
 30
0.0
 11
92.6093199999999968
 21
91.1507560000000012
 31
0.0
  0
LINE
  5
9C
100
AcDbEntity
100
AcDbLine
  8
ridge
 62
1
370
-1
  6
ByLayer
 10
92.6093199999999968
 20
91.1507560000000012
 30
0.0
 11
89.6334219999999959
 21
91.3271309999999943
 31
0.0
  0
LINE
  5
9D
100
AcDbEntity
100
AcDbLine
  8
ridge
 62
1
370
-1
  6
ByLayer
 10
89.6334219999999959
 20
91.3271309999999943
 30
0.0
 11
86.638378000000003
 21
91.6447780000000023
 31
0.0
  0
LINE
  5
9E
100
AcDbEntity
100
AcDbLine
  8
ridge
 62
1
370
-1
  6
ByLayer
 10
86.638378000000003
 20
91.6447780000000023
 30
0.0
 11
83.6535200000000003
 21
91.5983659999999986
 31
0.0
  0
LINE
  5
9F
100
AcDbEntity
100
AcDbLine
  8
ridge
 62
1
370
-1
  6
ByLayer
 10
83.6535200000000003
 20
91.5983659999999986
 30
0.0
 11
79.5804270000000002
 21
91.2735370000000046
 31
0.0
  0
LINE
  5
A0
100
AcDbEntity
100
AcDbLine
  8
ridge
 62
1
370
-1
  6
ByLayer
 10
79.5804270000000002
 20
91.2735370000000046
 30
0.0
 11
75.4803500000000014
 21
90.9020790000000005
 31
0.0
  0
LINE
  5
A1
100
AcDbEntity
100
AcDbLine
  8
ridge
 62
1
370
-1
  6
ByLayer
 10
75.4803500000000014
 20
90.9020790000000005
 30
0.0
 11
71.398264999999995
 21
90.8476469999999949
 31
0.0
  0
LINE
  5
A2
100
AcDbEntity
100
AcDbLine
  8
ridge
 62
1
370
-1
  6
ByLayer
 10
71.398264999999995
 20
90.8476469999999949
 30
0.0
 11
67.3791439999999966
 21
91.4738889999999998
 31
0.0
  0
LINE
  5
A3
100
AcDbEntity
100
AcDbLine
  8
ridge
 62
1
370
-1
  6
ByLayer
 10
67.3791439999999966
 20
91.4738889999999998
 30
0.0
 11
64.6783539999999988
 21
93.678606000000002
 31
0.0
  0
LINE
  5
A4
100
AcDbEntity
100
AcDbLine
  8
ridge
 62
1
370
-1
  6
ByLayer
 10
64.6783539999999988
 20
93.678606000000002
 30
0.0
 11
62.5963530000000006
 21
96.4904200000000003
 31
0.0
  0
LINE
  5
A5
100
AcDbEntity
100
AcDbLine
  8
ridge
 62
1
370
-1
  6
ByLayer
 10
62.5963530000000006
 20
96.4904200000000003
 30
0.0
 11
60.6128950000000017
 21
99.4192409999999995
 31
0.0
  0
LINE
  5
A6
100
AcDbEntity
100
AcDbLine
  8
ridge
 62
1
370
-1
  6
ByLayer
 10
60.6128950000000017
 20
99.4192409999999995
 30
0.0
 11
58.2077379999999991
 21
101.974971999999994
 31
0.0
  0
LINE
  5
A7
100
AcDbEntity
100
AcDbLine
  8
ridge
 62
1
370
-1
  6
ByLayer
 10
58.2077379999999991
 20
101.974971999999994
 30
0.0
 11
56.502512000000003
 21
103.4917439999999971
 31
0.0
  0
LINE
  5
A8
100
AcDbEntity
100
AcDbLine
  8
ridge
 62
1
370
-1
  6
ByLayer
 10
56.502512000000003
 20
103.4917439999999971
 30
0.0
 11
54.6878450000000029
 21
104.8987939999999952
 31
0.0
  0
LINE
  5
A9
100
AcDbEntity
100
AcDbLine
  8
ridge
 62
1
370
-1
  6
ByLayer
 10
54.6878450000000029
 20
104.8987939999999952
 30
0.0
 11
52.7357230000000001
 21
106.0802979999999991
 31
0.0
  0
LINE
  5
AA
100
AcDbEntity
100
AcDbLine
  8
ridge
 62
1
370
-1
  6
ByLayer
 10
52.7357230000000001
 20
106.0802979999999991
 30
0.0
 11
50.6181249999999991
 21
106.9204509999999999
 31
0.0
  0
LINE
  5
AB
100
AcDbEntity
100
AcDbLine
  8
ridge
 62
1
370
-1
  6
ByLayer
 10
50.6181249999999991
 20
106.9204509999999999
 30
0.0
 11
49.2018210000000025
 21
106.281021999999993
 31
0.0
  0
LINE
  5
AC
100
AcDbEntity
100
AcDbLine
  8
ridge
 62
1
370
-1
  6
ByLayer
 10
49.2018210000000025
 20
106.281021999999993
 30
0.0
 11
48.2059429999999978
 21
105.1026289999999932
 31
0.0
  0
LINE
  5
AD
100
AcDbEntity
100
AcDbLine
  8
ridge
 62
1
370
-1
  6
ByLayer
 10
48.2059429999999978
 20
105.1026289999999932
 30
0.0
 11
47.4095459999999989
 21
103.6963209999999975
 31
0.0
  0
LINE
  5
AE
100
AcDbEntity
100
AcDbLine
  8
ridge
 62
1
370
-1
  6
ByLayer
 10
47.4095459999999989
 20
103.6963209999999975
 30
0.0
 11
46.5916720000000026
 21
102.3731559999999945
 31
0.0
  0
LINE
  5
AF
100
AcDbEntity
100
AcDbLine
  8
ridge
 62
1
370
-1
  6
ByLayer
 10
46.5916720000000026
 20
102.3731559999999945
 30
0.0
 11
42.7173870000000022
 21
92.894835999999998
 31
0.0
  0
LINE
  5
B0
100
AcDbEntity
100
AcDbLine
  8
ridge
 62
1
370
-1
  6
ByLayer
 10
42.7173870000000022
 20
92.894835999999998
 30
0.0
 11
41.097332999999999
 21
82.7991090000000014
 31
0.0
  0
LINE
  5
B1
100
AcDbEntity
100
AcDbLine
  8
ridge
 62
1
370
-1
  6
ByLayer
 10
41.097332999999999
 20
82.7991090000000014
 30
0.0
 11
41.5221390000000028
 21
72.5345630000000057
 31
0.0
  0
LINE
  5
B2
100
AcDbEntity
100
AcDbLine
  8
ridge
 62
1
370
-1
  6
ByLayer
 10
41.5221390000000028
 20
72.5345630000000057
 30
0.0
 11
43.7824340000000021
 21
62.5497799999999984
 31
0.0
  0
LINE
  5
B3
100
AcDbEntity
100
AcDbLine
  8
ridge
 62
1
370
-1
  6
ByLayer
 10
43.7824340000000021
 20
62.5497799999999984
 30
0.0
 11
44.7868830000000031
 21
59.7444380000000024
 31
0.0
  0
LINE
  5
B4
100
AcDbEntity
100
AcDbLine
  8
ridge
 62
1
370
-1
  6
ByLayer
 10
44.7868830000000031
 20
59.7444380000000024
 30
0.0
 11
46.0226609999999994
 21
57.015149000000001
 31
0.0
  0
LINE
  5
B5
100
AcDbEntity
100
AcDbLine
  8
ridge
 62
1
370
-1
  6
ByLayer
 10
46.0226609999999994
 20
57.015149000000001
 30
0.0
 11
47.5784620000000018
 21
54.4759189999999975
 31
0.0
  0
LINE
  5
B6
100
AcDbEntity
100
AcDbLine
  8
ridge
 62
1
370
-1
  6
ByLayer
 10
47.5784620000000018
 20
54.4759189999999975
 30
0.0
 11
49.542974000000001
 21
52.2407559999999975
 31
0.0
  0
LINE
  5
B7
100
AcDbEntity
100
AcDbLine
  8
ridge
 62
1
370
-1
  6
ByLayer
 10
49.542974000000001
 20
52.2407559999999975
 30
0.0
 11
52.5232519999999994
 21
50.4738779999999991
 31
0.0
  0
LINE
  5
B8
100
AcDbEntity
100
AcDbLine
  8
ridge
 62
1
370
-1
  6
ByLayer
 10
52.5232519999999994
 20
50.4738779999999991
 30
0.0
 11
55.7183849999999978
 21
49.1510999999999996
 31
0.0
  0
LINE
  5
B9
100
AcDbEntity
100
AcDbLine
  8
ridge
 62
1
370
-1
  6
ByLayer
 10
55.7183849999999978
 20
49.1510999999999996
 30
0.0
 11
59.0059949999999986
 21
48.0265289999999965
 31
0.0
  0
LINE
  5
BA
100
AcDbEntity
100
AcDbLine
  8
ridge
 62
1
370
-1
  6
ByLayer
 10
59.0059949999999986
 20
48.0265289999999965
 30
0.0
 11
62.2636970000000005
 21
46.8542619999999985
 31
0.0
  0
LINE
  5
BB
100
AcDbEntity
100
AcDbLine
  8
ridge
 62
1
370
-1
  6
ByLayer
 10
62.2636970000000005
 20
46.8542619999999985
 30
0.0
 11
76.5628700000000038
 21
43.7037029999999973
 31
0.0
  0
LINE
  5
BC
100
AcDbEntity
100
AcDbLine
  8
ridge
 62
1
370
-1
  6
ByLayer
 10
76.5628700000000038
 20
43.7037029999999973
 30
0.0
 11
91.2099950000000064
 21
43.0710139999999981
 31
0.0
  0
LINE
  5
BD
100
AcDbEntity
100
AcDbLine
  8
ridge
 62
1
370
-1
  6
ByLayer
 10
91.2099950000000064
 20
43.0710139999999981
 30
0.0
 11
105.718829999999997
 21
45.0428700000000006
 31
0.0
  0
LINE
  5
BE
100
AcDbEntity
100
AcDbLine
  8
ridge
 62
1
370
-1
  6
ByLayer
 10
105.718829999999997
 20
45.0428700000000006
 30
0.0
 11
119.6031329999999997
 21
49.7059349999999966
 31
0.0
  0
LINE
  5
BF
100
AcDbEntity
100
AcDbLine
  8
ridge
 62
1
370
-1
  6
ByLayer
 10
119.6031329999999997
 20
49.7059349999999966
 30
0.0
 11
121.971942999999996
 21
51.8491890000000026
 31
0.0
  0
LINE
  5
C0
100
AcDbEntity
100
AcDbLine
  8
ridge
 62
1
370
-1
  6
ByLayer
 10
121.971942999999996
 20
51.8491890000000026
 30
0.0
 11
123.7128419999999949
 21
54.5126390000000001
 31
0.0
  0
LINE
  5
C1
100
AcDbEntity
100
AcDbLine
  8
ridge
 62
1
370
-1
  6
ByLayer
 10
123.7128419999999949
 20
54.5126390000000001
 30
0.0
 11
125.1177100000000024
 21
57.4235499999999988
 31
0.0
  0
LINE
  5
C2
100
AcDbEntity
100
AcDbLine
  8
ridge
 62
1
370
-1
  6
ByLayer
 10
125.1177100000000024
 20
57.4235499999999988
 30
0.0
 11
126.4784339999999929
 21
60.3091790000000003
 31
0.0
  0
LINE
  5
C3
100
AcDbEntity
100
AcDbLine
  8
ridge
 62
1
370
-1
  6
ByLayer
 10
126.4784339999999929
 20
60.3091790000000003
 30
0.0
 11
128.9437580000000025
 21
68.8000349999999941
 31
0.0
  0
LINE
  5
C4
100
AcDbEntity
100
AcDbLine
  8
ridge
 62
1
370
-1
  6
ByLayer
 10
128.9437580000000025
 20
68.8000349999999941
 30
0.0
 11
129.5004209999999887
 21
77.6075660000000056
 31
0.0
  0
LINE
  5
C5
100
AcDbEntity
100
AcDbLine
  8
ridge
 62
1
370
-1
  6
ByLayer
 10
129.5004209999999887
 20
77.6075660000000056
 30
0.0
 11
128.3183310000000006
 21
86.3845790000000022
 31
0.0
  0
LINE
  5
C6
100
AcDbEntity
100
AcDbLine
  8
ridge
 62
1
370
-1
  6
ByLayer
 10
128.3183310000000006
 20
86.3845790000000022
 30
0.0
 11
125.5673859999999991
 21
94.7838679999999982
 31
0.0
  0
LINE
  5
C7
100
AcDbEntity
100
AcDbLine
  8
ridge
 62
1
370
-1
  6
ByLayer
 10
125.5673859999999991
 20
94.7838679999999982
 30
0.0
 11
124.8926950000000033
 21
96.2319559999999967
 31
0.0
  0
LINE
  5
C8
100
AcDbEntity
100
AcDbLine
  8
ridge
 62
1
370
-1
  6
ByLayer
 10
124.8926950000000033
 20
96.2319559999999967
 30
0.0
 11
124.3237519999999989
 21
97.744410000000002
 31
0.0
  0
LINE
  5
C9
100
AcDbEntity
100
AcDbLine
  8
ridge
 62
1
370
-1
  6
ByLayer
 10
124.3237519999999989
 20
97.744410000000002
 30
0.0
 11
124.0688200000000023
 21
99.2984380000000044
 31
0.0
  0
LINE
  5
CA
100
AcDbEntity
100
AcDbLine
  8
ridge
 62
1
370
-1
  6
ByLayer
 10
124.0688200000000023
 20
99.2984380000000044
 30
0.0
 11
124.3361689999999982
 21
100.8712400000000002
 31
0.0
  0
LINE
  5
CB
100
AcDbEntity
100
AcDbLine
  8
ridge
 62
1
370
-1
  6
ByLayer
 10
124.3361689999999982
 20
100.8712400000000002
 30
0.0
 11
125.1648950000000013
 21
102.9556829999999934
 31
0.0
  0
LINE
  5
CC
100
AcDbEntity
100
AcDbLine
  8
ridge
 62
1
370
-1
  6
ByLayer
 10
125.1648950000000013
 20
102.9556829999999934
 30
0.0
 11
126.3458629999999943
 21
104.872595000000004
 31
0.0
  0
LINE
  5
CD
100
AcDbEntity
100
AcDbLine
  8
ridge
 62
1
370
-1
  6
ByLayer
 10
126.3458629999999943
 20
104.872595000000004
 30
0.0
 11
127.8214729999999975
 21
106.5713049999999953
 31
0.0
  0
LINE
  5
CE
100
AcDbEntity
100
AcDbLine
  8
ridge
 62
1
370
-1
  6
ByLayer
 10
127.8214729999999975
 20
106.5713049999999953
 30
0.0
 11
129.534120999999999
 21
108.0011439999999965
 31
0.0
  0
LINE
  5
CF
100
AcDbEntity
100
AcDbLine
  8
ridge
 62
1
370
-1
  6
ByLayer
 10
129.534120999999999
 20
108.0011439999999965
 30
0.0
 11
131.5143480000000125
 21
108.8382150000000053
 31
0.0
  0
LINE
  5
D0
100
AcDbEntity
100
AcDbLine
  8
ridge
 62
1
370
-1
  6
ByLayer
 10
131.5143480000000125
 20
108.8382150000000053
 30
0.0
 11
133.6234029999999962
 21
109.1609559999999988
 31
0.0
  0
LINE
  5
D1
100
AcDbEntity
100
AcDbLine
  8
ridge
 62
1
370
-1
  6
ByLayer
 10
133.6234029999999962
 20
109.1609559999999988
 30
0.0
 11
135.7829450000000122
 21
109.1145530000000008
 31
0.0
  0
LINE
  5
D2
100
AcDbEntity
100
AcDbLine
  8
ridge
 62
1
370
-1
  6
ByLayer
 10
135.7829450000000122
 20
109.1145530000000008
 30
0.0
 11
137.9146310000000142
 21
108.8441990000000033
 31
0.0
  0
LINE
  5
D3
100
AcDbEntity
100
AcDbLine
  8
ridge
 62
1
370
-1
  6
ByLayer
 10
137.9146310000000142
 20
108.8441990000000033
 30
0.0
 11
140.7052500000000066
 21
109.2823369999999983
 31
0.0
  0
LINE
  5
D4
100
AcDbEntity
100
AcDbLine
  8
ridge
 62
1
370
-1
  6
ByLayer
 10
140.7052500000000066
 20
109.2823369999999983
 30
0.0
 11
143.3115160000000117
 21
110.4448780000000028
 31
0.0
  0
LINE
  5
D5
100
AcDbEntity
100
AcDbLine
  8
ridge
 62
1
370
-1
  6
ByLayer
 10
143.3115160000000117
 20
110.4448780000000028
 30
0.0
 11
145.4714979999999969
 21
112.2668649999999957
 31
0.0
  0
LINE
  5
D6
100
AcDbEntity
100
AcDbLine
  8
ridge
 62
1
370
-1
  6
ByLayer
 10
145.4714979999999969
 20
112.2668649999999957
 30
0.0
 11
146.9232580000000041
 21
114.6833369999999945
 31
0.0
  0
LINE
  5
D7
100
AcDbEntity
100
AcDbLine
  8
ridge
 62
1
370
-1
  6
ByLayer
 10
146.9232580000000041
 20
114.6833369999999945
 30
0.0
 11
146.566190000000006
 21
115.895387999999997
 31
0.0
  0
LINE
  5
D8
100
AcDbEntity
100
AcDbLine
  8
ridge
 62
1
370
-1
  6
ByLayer
 10
146.566190000000006
 20
115.895387999999997
 30
0.0
 11
145.6064480000000003
 21
116.6783690000000036
 31
0.0
  0
LINE
  5
D9
100
AcDbEntity
100
AcDbLine
  8
ridge
 62
1
370
-1
  6
ByLayer
 10
145.6064480000000003
 20
116.6783690000000036
 30
0.0
 11
144.3459619999999859
 21
117.0055940000000021
 31
0.0
  0
LINE
  5
DA
100
AcDbEntity
100
AcDbLine
  8
ridge
 62
1
370
-1
  6
ByLayer
 10
144.3459619999999859
 20
117.0055940000000021
 30
0.0
 11
143.0866690000000006
 21
116.8503829999999937
 31
0.0
  0
LINE
  5
DB
100
AcDbEntity
100
AcDbLine
  8
ridge
 62
1
370
-1
  6
ByLayer
 10
143.0866690000000006
 20
116.8503829999999937
 30
0.0
 11
139.5174499999999966
 21
116.9140890000000041
 31
0.0
  0
LINE
  5
DC
100
AcDbEntity
100
AcDbLine
  8
ridge
 62
1
370
-1
  6
ByLayer
 10
139.5174499999999966
 20
116.9140890000000041
 30
0.0
 11
136.0102660000000014
 21
117.7212159999999983
 31
0.0
  0
LINE
  5
DD
100
AcDbEntity
100
AcDbLine
  8
ridge
 62
1
370
-1
  6
ByLayer
 10
136.0102660000000014
 20
117.7212159999999983
 30
0.0
 11
132.861865999999992
 21
119.3552999999999997
 31
0.0
  0
LINE
  5
DE
100
AcDbEntity
100
AcDbLine
  8
ridge
 62
1
370
-1
  6
ByLayer
 10
132.861865999999992
 20
119.3552999999999997
 30
0.0
 11
130.3689829999999859
 21
121.8998780000000011
 31
0.0
  0
LINE
  5
DF
100
AcDbEntity
100
AcDbLine
  8
ridge
 62
1
370
-1
  6
ByLayer
 10
130.3689829999999859
 20
121.8998780000000011
 30
0.0
 11
128.8775740000000098
 21
124.7889700000000062
 31
0.0
  0
LINE
  5
E0
100
AcDbEntity
100
AcDbLine
  8
ridge
 62
1
370
-1
  6
ByLayer
 10
128.8775740000000098
 20
124.7889700000000062
 30
0.0
 11
127.4491199999999935
 21
127.7509089999999929
 31
0.0
  0
LINE
  5
E1
100
AcDbEntity
100
AcDbLine
  8
ridge
 62
1
370
-1
  6
ByLayer
 10
127.4491199999999935
 20
127.7509089999999929
 30
0.0
 11
125.720201000000003
 21
130.4858450000000119
 31
0.0
  0
LINE
  5
E2
100
AcDbEntity
100
AcDbLine
  8
ridge
 62
1
370
-1
  6
ByLayer
 10
125.720201000000003
 20
130.4858450000000119
 30
0.0
 11
123.3273970000000048
 21
132.6939209999999889
 31
0.0
  0
LINE
  5
E3
100
AcDbEntity
100
AcDbLine
  8
ridge
 62
1
370
-1
  6
ByLayer
 10
123.3273970000000048
 20
132.6939209999999889
 30
0.0
 11
120.6300609999999978
 21
134.5366319999999973
 31
0.0
  0
LINE
  5
E4
100
AcDbEntity
100
AcDbLine
  8
ridge
 62
1
370
-1
  6
ByLayer
 10
120.6300609999999978
 20
134.5366319999999973
 30
0.0
 11
117.6624240000000015
 21
135.9138989999999865
 31
0.0
  0
LINE
  5
E5
100
AcDbEntity
100
AcDbLine
  8
ridge
 62
1
370
-1
  6
ByLayer
 10
117.6624240000000015
 20
135.9138989999999865
 30
0.0
 11
114.5067360000000036
 21
136.757396
 31
0.0
  0
LINE
  5
E6
100
AcDbEntity
100
AcDbLine
  8
ridge
 62
1
370
-1
  6
ByLayer
 10
114.5067360000000036
 20
136.757396
 30
0.0
 11
111.2452580000000069
 21
136.9988089999999943
 31
0.0
  0
LINE
  5
E7
100
AcDbEntity
100
AcDbLine
  8
ridge
 62
1
370
-1
  6
ByLayer
 10
111.9804859999999991
 20
133.5069750000000113
 30
0.0
 11
105.1354400000000027
 21
131.8664569999999969
 31
0.0
  0
LINE
  5
E8
100
AcDbEntity
100
AcDbLine
  8
ridge
 62
1
370
-1
  6
ByLayer
 10
105.1354400000000027
 20
131.8664569999999969
 30
0.0
 11
99.545068999999998
 21
127.6596830000000011
 31
0.0
  0
LINE
  5
E9
100
AcDbEntity
100
AcDbLine
  8
ridge
 62
1
370
-1
  6
ByLayer
 10
99.545068999999998
 20
127.6596830000000011
 30
0.0
 11
95.5617680000000007
 21
117.8552969999999931
 31
0.0
  0
LINE
  5
EA
100
AcDbEntity
100
AcDbLine
  8
ridge
 62
1
370
-1
  6
ByLayer
 10
95.5617680000000007
 20
117.8552969999999931
 30
0.0
 11
98.1339580000000069
 21
107.5778080000000045
 31
0.0
  0
LINE
  5
EB
100
AcDbEntity
100
AcDbLine
  8
ridge
 62
1
370
-1
  6
ByLayer
 10
98.1339580000000069
 20
107.5778080000000045
 30
0.0
 11
101.6558260000000047
 21
102.7286830000000037
 31
0.0
  0
LINE
  5
EC
100
AcDbEntity
100
AcDbLine
  8
ridge
 62
1
370
-1
  6
ByLayer
 10
101.6558260000000047
 20
102.7286830000000037
 30
0.0
 11
103.1522219999999948
 21
97.0826689999999957
 31
0.0
  0
LINE
  5
ED
100
AcDbEntity
100
AcDbLine
  8
ridge
 62
1
370
-1
  6
ByLayer
 10
103.1522219999999948
 20
97.0826689999999957
 30
0.0
 11
99.769953000000001
 21
90.3364830000000012
 31
0.0
  0
LINE
  5
EE
100
AcDbEntity
100
AcDbLine
  8
ridge
 62
1
370
-1
  6
ByLayer
 10
99.769953000000001
 20
90.3364830000000012
 30
0.0
 11
92.6482639999999975
 21
87.857529999999997
 31
0.0
  0
LINE
  5
EF
100
AcDbEntity
100
AcDbLine
  8
ridge
 62
1
370
-1
  6
ByLayer
 10
92.6482639999999975
 20
87.857529999999997
 30
0.0
 11
85.604723000000007
 21
88.180847
 31
0.0
  0
LINE
  5
F0
100
AcDbEntity
100
AcDbLine
  8
ridge
 62
1
370
-1
  6
ByLayer
 10
85.604723000000007
 20
88.180847
 30
0.0
 11
78.6023320000000041
 21
87.7900599999999969
 31
0.0
  0
LINE
  5
F1
100
AcDbEntity
100
AcDbLine
  8
ridge
 62
1
370
-1
  6
ByLayer
 10
78.6023320000000041
 20
87.7900599999999969
 30
0.0
 11
70.9806389999999965
 21
87.4913580000000053
 31
0.0
  0
LINE
  5
F2
100
AcDbEntity
100
AcDbLine
  8
ridge
 62
1
370
-1
  6
ByLayer
 10
70.9806389999999965
 20
87.4913580000000053
 30
0.0
 11
63.9056939999999969
 21
89.8771830000000023
 31
0.0
  0
LINE
  5
F3
100
AcDbEntity
100
AcDbLine
  8
ridge
 62
1
370
-1
  6
ByLayer
 10
63.9056939999999969
 20
89.8771830000000023
 30
0.0
 11
57.3684000000000012
 21
96.1863989999999944
 31
0.0
  0
LINE
  5
F4
100
AcDbEntity
100
AcDbLine
  8
ridge
 62
1
370
-1
  6
ByLayer
 10
57.3684000000000012
 20
96.1863989999999944
 30
0.0
 11
52.0799990000000008
 21
97.9456990000000047
 31
0.0
  0
LINE
  5
F5
100
AcDbEntity
100
AcDbLine
  8
ridge
 62
1
370
-1
  6
ByLayer
 10
52.0799990000000008
 20
97.9456990000000047
 30
0.0
 11
48.2214200000000019
 21
96.001648000000003
 31
0.0
  0
LINE
  5
F6
100
AcDbEntity
100
AcDbLine
  8
ridge
 62
1
370
-1
  6
ByLayer
 10
48.2214200000000019
 20
96.001648000000003
 30
0.0
 11
45.9736019999999996
 21
91.2008110000000016
 31
0.0
  0
LINE
  5
F7
100
AcDbEntity
100
AcDbLine
  8
ridge
 62
1
370
-1
  6
ByLayer
 10
45.9736019999999996
 20
91.2008110000000016
 30
0.0
 11
44.839858999999997
 21
74.396136999999996
 31
0.0
  0
LINE
  5
F8
100
AcDbEntity
100
AcDbLine
  8
ridge
 62
1
370
-1
  6
ByLayer
 10
44.839858999999997
 20
74.396136999999996
 30
0.0
 11
49.2213190000000012
 21
58.1448219999999978
 31
0.0
  0
LINE
  5
F9
100
AcDbEntity
100
AcDbLine
  8
ridge
 62
1
370
-1
  6
ByLayer
 10
49.2213190000000012
 20
58.1448219999999978
 30
0.0
 11
53.062375000000003
 21
54.0804299999999998
 31
0.0
  0
LINE
  5
FA
100
AcDbEntity
100
AcDbLine
  8
ridge
 62
1
370
-1
  6
ByLayer
 10
53.062375000000003
 20
54.0804299999999998
 30
0.0
 11
58.2563249999999968
 21
51.8650019999999969
 31
0.0
  0
LINE
  5
FB
100
AcDbEntity
100
AcDbLine
  8
ridge
 62
1
370
-1
  6
ByLayer
 10
58.2563249999999968
 20
51.8650019999999969
 30
0.0
 11
71.9325149999999951
 21
47.9942679999999982
 31
0.0
  0
LINE
  5
FC
100
AcDbEntity
100
AcDbLine
  8
ridge
 62
1
370
-1
  6
ByLayer
 10
71.9325149999999951
 20
47.9942679999999982
 30
0.0
 11
85.4135540000000049
 21
46.6604829999999993
 31
0.0
  0
LINE
  5
FD
100
AcDbEntity
100
AcDbLine
  8
ridge
 62
1
370
-1
  6
ByLayer
 10
85.4135540000000049
 20
46.6604829999999993
 30
0.0
 11
99.2178750000000065
 21
47.5438389999999984
 31
0.0
  0
LINE
  5
FE
100
AcDbEntity
100
AcDbLine
  8
ridge
 62
1
370
-1
  6
ByLayer
 10
99.2178750000000065
 20
47.5438389999999984
 30
0.0
 11
112.6625489999999985
 21
50.8843140000000034
 31
0.0
  0
LINE
  5
FF
100
AcDbEntity
100
AcDbLine
  8
ridge
 62
1
370
-1
  6
ByLayer
 10
112.6625489999999985
 20
50.8843140000000034
 30
0.0
 11
116.2713279999999969
 21
52.0895020000000031
 31
0.0
  0
LINE
  5
100
100
AcDbEntity
100
AcDbLine
  8
ridge
 62
1
370
-1
  6
ByLayer
 10
116.2713279999999969
 20
52.0895020000000031
 30
0.0
 11
119.3535420000000045
 21
54.1672530000000023
 31
0.0
  0
LINE
  5
101
100
AcDbEntity
100
AcDbLine
  8
ridge
 62
1
370
-1
  6
ByLayer
 10
119.3535420000000045
 20
54.1672530000000023
 30
0.0
 11
122.3241060000000004
 21
59.2284420000000011
 31
0.0
  0
LINE
  5
102
100
AcDbEntity
100
AcDbLine
  8
ridge
 62
1
370
-1
  6
ByLayer
 10
122.3241060000000004
 20
59.2284420000000011
 30
0.0
 11
124.3453470000000038
 21
64.759405000000001
 31
0.0
  0
LINE
  5
103
100
AcDbEntity
100
AcDbLine
  8
ridge
 62
1
370
-1
  6
ByLayer
 10
124.3453470000000038
 20
64.759405000000001
 30
0.0
 11
125.8839689999999933
 21
79.3415480000000031
 31
0.0
  0
LINE
  5
104
100
AcDbEntity
100
AcDbLine
  8
ridge
 62
1
370
-1
  6
ByLayer
 10
125.8839689999999933
 20
79.3415480000000031
 30
0.0
 11
122.2486360000000047
 21
93.5477960000000053
 31
0.0
  0
LINE
  5
105
100
AcDbEntity
100
AcDbLine
  8
ridge
 62
1
370
-1
  6
ByLayer
 10
122.2486360000000047
 20
93.5477960000000053
 30
0.0
 11
120.9110749999999967
 21
99.0469020000000029
 31
0.0
  0
LINE
  5
106
100
AcDbEntity
100
AcDbLine
  8
ridge
 62
1
370
-1
  6
ByLayer
 10
120.9110749999999967
 20
99.0469020000000029
 30
0.0
 11
122.122846999999993
 21
104.4998219999999947
 31
0.0
  0
LINE
  5
107
100
AcDbEntity
100
AcDbLine
  8
ridge
 62
1
370
-1
  6
ByLayer
 10
122.122846999999993
 20
104.4998219999999947
 30
0.0
 11
125.5165920000000028
 21
109.2923700000000053
 31
0.0
  0
LINE
  5
108
100
AcDbEntity
100
AcDbLine
  8
ridge
 62
1
370
-1
  6
ByLayer
 10
125.5165920000000028
 20
109.2923700000000053
 30
0.0
 11
128.0420009999999991
 21
113.2978769999999997
 31
0.0
  0
LINE
  5
109
100
AcDbEntity
100
AcDbLine
  8
ridge
 62
1
370
-1
  6
ByLayer
 10
128.0420009999999991
 20
113.2978769999999997
 30
0.0
 11
128.4177090000000021
 21
117.8903799999999933
 31
0.0
  0
LINE
  5
10A
100
AcDbEntity
100
AcDbLine
  8
ridge
 62
1
370
-1
  6
ByLayer
 10
128.4177090000000021
 20
117.8903799999999933
 30
0.0
 11
125.3623520000000013
 21
124.443918999999994
 31
0.0
  0
LINE
  5
10B
100
AcDbEntity
100
AcDbLine
  8
ridge
 62
1
370
-1
  6
ByLayer
 10
125.3623520000000013
 20
124.443918999999994
 30
0.0
 11
119.9978210000000018
 21
130.9511390000000119
 31
0.0
  0
LINE
  5
10C
100
AcDbEntity
100
AcDbLine
  8
ridge
 62
1
370
-1
  6
ByLayer
 10
119.9978210000000018
 20
130.9511390000000119
 30
0.0
 11
111.9804859999999991
 21
133.5069750000000113
 31
0.0
  0
LINE
  5
10D
100
AcDbEntity
100
AcDbLine
  8
details_top
 62
2
370
-1
  6
ByLayer
 10
122.3130759999999952
 20
124.2630400000000037
 30
0.0
 11
121.8938210000000026
 21
122.1866150000000033
 31
0.0
  0
LINE
  5
10E
100
AcDbEntity
100
AcDbLine
  8
details_top
 62
2
370
-1
  6
ByLayer
 10
121.8938210000000026
 20
122.1866150000000033
 30
0.0
 11
120.750473999999997
 21
120.4909849999999949
 31
0.0
  0
LINE
  5
10F
100
AcDbEntity
100
AcDbLine
  8
details_top
 62
2
370
-1
  6
ByLayer
 10
120.750473999999997
 20
120.4909849999999949
 30
0.0
 11
119.054663000000005
 21
119.3477589999999964
 31
0.0
  0
LINE
  5
110
100
AcDbEntity
100
AcDbLine
  8
details_top
 62
2
370
-1
  6
ByLayer
 10
119.054663000000005
 20
119.3477589999999964
 30
0.0
 11
116.9780180000000058
 21
118.9285490000000038
 31
0.0
  0
LINE
  5
111
100
AcDbEntity
100
AcDbLine
  8
details_top
 62
2
370
-1
  6
ByLayer
 10
116.9780180000000058
 20
118.9285490000000038
 30
0.0
 11
114.9013730000000066
 21
119.3477589999999964
 31
0.0
  0
LINE
  5
112
100
AcDbEntity
100
AcDbLine
  8
details_top
 62
2
370
-1
  6
ByLayer
 10
114.9013730000000066
 20
119.3477589999999964
 30
0.0
 11
113.2055620000000005
 21
120.4909849999999949
 31
0.0
  0
LINE
  5
113
100
AcDbEntity
100
AcDbLine
  8
details_top
 62
2
370
-1
  6
ByLayer
 10
113.2055620000000005
 20
120.4909849999999949
 30
0.0
 11
112.0622149999999948
 21
122.1866150000000033
 31
0.0
  0
LINE
  5
114
100
AcDbEntity
100
AcDbLine
  8
details_top
 62
2
370
-1
  6
ByLayer
 10
112.0622149999999948
 20
122.1866150000000033
 30
0.0
 11
111.6429600000000022
 21
124.2630400000000037
 31
0.0
  0
LINE
  5
115
100
AcDbEntity
100
AcDbLine
  8
details_top
 62
2
370
-1
  6
ByLayer
 10
111.6429600000000022
 20
124.2630400000000037
 30
0.0
 11
112.0622149999999948
 21
126.3394650000000041
 31
0.0
  0
LINE
  5
116
100
AcDbEntity
100
AcDbLine
  8
details_top
 62
2
370
-1
  6
ByLayer
 10
112.0622149999999948
 20
126.3394650000000041
 30
0.0
 11
113.2055620000000005
 21
128.0350950000000125
 31
0.0
  0
LINE
  5
117
100
AcDbEntity
100
AcDbLine
  8
details_top
 62
2
370
-1
  6
ByLayer
 10
113.2055620000000005
 20
128.0350950000000125
 30
0.0
 11
114.9013730000000066
 21
129.1783210000000111
 31
0.0
  0
LINE
  5
118
100
AcDbEntity
100
AcDbLine
  8
details_top
 62
2
370
-1
  6
ByLayer
 10
114.9013730000000066
 20
129.1783210000000111
 30
0.0
 11
116.9780180000000058
 21
129.5975310000000036
 31
0.0
  0
LINE
  5
119
100
AcDbEntity
100
AcDbLine
  8
details_top
 62
2
370
-1
  6
ByLayer
 10
116.9780180000000058
 20
129.5975310000000036
 30
0.0
 11
119.054663000000005
 21
129.1783210000000111
 31
0.0
  0
LINE
  5
11A
100
AcDbEntity
100
AcDbLine
  8
details_top
 62
2
370
-1
  6
ByLayer
 10
119.054663000000005
 20
129.1783210000000111
 30
0.0
 11
120.750473999999997
 21
128.0350950000000125
 31
0.0
  0
LINE
  5
11B
100
AcDbEntity
100
AcDbLine
  8
details_top
 62
2
370
-1
  6
ByLayer
 10
120.750473999999997
 20
128.0350950000000125
 30
0.0
 11
121.8938210000000026
 21
126.3394650000000041
 31
0.0
  0
LINE
  5
11C
100
AcDbEntity
100
AcDbLine
  8
details_top
 62
2
370
-1
  6
ByLayer
 10
121.8938210000000026
 20
126.3394650000000041
 30
0.0
 11
122.3130759999999952
 21
124.2630400000000037
 31
0.0
  0
ENDSEC
  0
SECTION
  2
OBJECTS
  0
DICTIONARY
  5
C
100
AcDbDictionary
280
0
281
1
  3
ACAD_GROUP
350
D
  3
ACAD_LAYOUT
350
1A
  3
ACAD_MLINESTYLE
350
17
  3
ACAD_PLOTSETTINGS
350
19
  3
ACAD_PLOTSTYLENAME
350
E
  3
AcDbVariableDictionary
350
11D
  0
DICTIONARY
  5
D
100
AcDbDictionary
280
0
281
1
  0
ACDBDICTIONARYWDFLT
  5
E
100
AcDbDictionary
281
1
  3
Normal
350
F
100
AcDbDictionaryWithDefault
340
F
  0
ACDBPLACEHOLDER
  5
F
  0
DICTIONARY
  5
17
100
AcDbDictionary
280
0
281
1
  3
Standard
350
18
  0
MLINESTYLE
  5
18
100
AcDbMlineStyle
  2
STANDARD
 70
0
  3

 62
256
 51
90.0
 52
90.0
 71
2
 49
0.5
 62
256
  6
BYLAYER
 49
-0.5
 62
256
  6
BYLAYER
  0
DICTIONARY
  5
19
100
AcDbDictionary
280
0
281
1
  0
DICTIONARY
  5
1A
100
AcDbDictionary
281
1
  3
Layout1
350
1E
  3
Layout2
350
26
  3
Model
350
22
  0
LAYOUT
  5
1E
100
AcDbPlotSettings
  1

  2
C:\Program Files\AutoCAD 2002\plotters\DWF ePlot (optimized for plotting).pc3
  4

  6

 40
0.0
 41
0.0
 42
0.0
 43
0.0
 44
0.0
 45
0.0
 46
0.0
 47
0.0
 48
0.0
 49
0.0
140
0.0
141
0.0
142
1.0
143
1.0
 70
688
 72
0
 73
0
 74
5
  7

 75
16
147
1.0
148
0.0
149
0.0
100
AcDbLayout
  1
Layout1
 70
1
 71
1
 10
0.0
 20
0.0
 11
420.0
 21
297.0
 12
0.0
 22
0.0
 32
0.0
 14
100000000000000000000.0
 24
100000000000000000000.0
 34
100000000000000000000.0
 15
-100000000000000000000.0
 25
-100000000000000000000.0
 35
-100000000000000000000.0
146
0.0
 13
0.0
 23
0.0
 33
0.0
 16
1.0
 26
0.0
 36
0.0
 17
0.0
 27
1.0
 37
0.0
 76
0
330
1B
  0
LAYOUT
  5
22
100
AcDbPlotSettings
  1

  2
C:\Program Files\AutoCAD 2002\plotters\DWF ePlot (optimized for plotting).pc3
  4

  6

 40
0.0
 41
0.0
 42
0.0
 43
0.0
 44
0.0
 45
0.0
 46
0.0
 47
0.0
 48
0.0
 49
0.0
140
0.0
141
0.0
142
1.0
143
1.0
 70
1712
 72
0
 73
0
 74
0
  7

 75
0
147
1.0
148
0.0
149
0.0
100
AcDbLayout
  1
Model
 70
1
 71
0
 10
0.0
 20
0.0
 11
12.0
 21
9.0
 12
0.0
 22
0.0
 32
0.0
 14
0.0
 24
0.0
 34
0.0
 15
0.0
 25
0.0
 35
0.0
146
0.0
 13
0.0
 23
0.0
 33
0.0
 16
1.0
 26
0.0
 36
0.0
 17
0.0
 27
1.0
 37
0.0
 76
0
330
1F
  0
LAYOUT
  5
26
100
AcDbPlotSettings
  1

  2
C:\Program Files\AutoCAD 2002\plotters\DWF ePlot (optimized for plotting).pc3
  4

  6

 40
0.0
 41
0.0
 42
0.0
 43
0.0
 44
0.0
 45
0.0
 46
0.0
 47
0.0
 48
0.0
 49
0.0
140
0.0
141
0.0
142
1.0
143
1.0
 70
688
 72
0
 73
0
 74
5
  7

 75
16
147
1.0
148
0.0
149
0.0
100
AcDbLayout
  1
Layout2
 70
1
 71
2
 10
0.0
 20
0.0
 11
12.0
 21
9.0
 12
0.0
 22
0.0
 32
0.0
 14
0.0
 24
0.0
 34
0.0
 15
0.0
 25
0.0
 35
0.0
146
0.0
 13
0.0
 23
0.0
 33
0.0
 16
1.0
 26
0.0
 36
0.0
 17
0.0
 27
1.0
 37
0.0
 76
0
330
23
  0
DICTIONARY
  5
11D
100
AcDbDictionary
281
1
  3
DIMASSOC
350
11F
  3
HIDETEXT
350
11E
  0
DICTIONARYVAR
  5
11E
100
DictionaryVariables
280
0
  1
2
  0
DICTIONARYVAR
  5
11F
100
DictionaryVariables
280
0
  1
1
  0
ENDSEC
  0
EOF
